Burning Bridges

I know exactly how you feel
cuz you is close to closin deal now
and everything fell from out your hands
you must decide on other plans now
maybe it's best to just ignore it
otherwise oh you're livin for it, yeah
and anyone else would wonder what this is
many folks oh you sold your soul
to the burning, burning, burning bridges

oh desires
can cause heart attacks
burning, burning, burning, burning, burning

 

 


 

Tablature


 

 

Drop D Tuning (DADGBE)
No Capo
 
Intro
second time through ad lib (just a little) 
2x
 
|---------------|----------------|-------------------|------------5----|
|---------------|----------------|----2--------------|--------------3--|
|----------7--9-|----9p7-6-------|------1-------6----|--------6--------|
|--------7------|----------9-7---|----------------4--|----------4------|
|-----7---------|--------------7-|-------------------|--0--------------|
|--7------------|--7-------------|--2-----2-3-4------|----4-0----------|
 
 
listen to it to get the rhythmic slaps. he uses his fingers so get the higher notes 
on the off beat then slap
 
Verse
 
|---------------|----------------|-------------------|-----------------|
|---------------|----------------|-------------------|-----------------|
|------9--------|------4---------|-----6-------------|-----2-----------|
|------9--------|------2---------|-----6-------------|-----2-----------|
|---------------|----------------|-------------------|-----------------|
|--7------------|--2---------2-3-|--4----------------|--0--------------|
 
 
bridge
 
|---------------|
|---------------|
|------6--------|
|------6--------|
|---------------|
|--4------------| 

 

 

Aucune note. Soyez le premier à attribuer une note !

Ajouter un commentaire
 

Créer un site gratuit avec e-monsite - Signaler un contenu illicite sur ce site