One Find


One drop going down and then you slipped away
One stop out of town, we'll meet again someday
Because I
I believe in love
I still wish on the stars above
I believe in love songs
Yes, I think that they are real
All you have to do is feel
All you have to do is feel
 
Chance missed for getting kissed
I think there's so much more than this
Guess I'll have to hold my breath
And I say
That I, I believe in fate
I believe in good things coming to those who wait
 
Although anticipation-laden
All my hopes were beginning to fade
When you willed me
How will we be?
 
This is only one temporary find
I'm sure before too long you will change your mind
One fine day
This is only one of a many finds
And I'm sure before too long you're gonna change your mind
Oh and one only fine day
 
See now I don't care, I don't care, I don't mind at all
We can all talk the talk but most cannot walk on
See now I've seen Uma Thurman hanging on the wall
I would like to try them all
I would like to try
Tell me you would like to try
Say we would all like to try them on
 
(scat)
I know all about it, well I thought I did
I wrote a song about it and it goes a little something like this:
Lovely lady, are you having fun playing?
You make me so damn crazy
Don't know what you're saying
But I, I don't care, I don't care 
And I know I don't care, I never cared but I kinda liked it
Yeah, the way you squeeze your mind it reminds me of a kind of me
 
This is only one of a many finds
I'm sure before too long you will make up your mind
One fine way
This is only one of a many finds 
And I'm sure before too long you're gonna make up your mind
Oh one only find way
 
(scat)
I know all about it
So I wrote a song about it and it goes a little something like this:
See now I, I believe in love songs
Yes, I think that they are real
All you have to do
You tell me all I have to do
All we have to do is feel
Is feel, feel so right 
Is feel, feel so nice
This is so nice
And this is so nice
And this is so right, right
Fine by me
 


Tablature


Standard Tuning

Capo on the 1st Fret

x=slap mute
 
Intro Part 1/Change-up: (small variations throughout)
E----------------------------------------------------------------------------------------------
B-------------------------------------------------------------------------------------------------
G--------------0--2-----------------0--2--------------------0 (2)------------------------------
D-----------3-------3------------3--------3--------------3--------3-----2--3--3---3----3—2----
A--------3------------3-------3--------------3--------1--------------1----------------1-------
E-----1----------------------1-----------------------0-------------------------------------------
One drop going down…
 
Intro Part 2: (not sure about this part)
E-------------------------------------------------------------------------------------------------
B-------------------------------------------------------------------------------------------------
G--------3------3---------5------5----------2-------2--- 2--2---2---2--2---0----------------
D------3---3------------5---5------------2----2----2----2--2---2---2--2---0----------------
A----1-------1-------3--------3--------3--------3----------------------------------------------
E---1---------------3-----------------1-------------1------1--1---1---1--1---0----------------
Because I, I believe in love…
 
Verse:
E--------------------------------------------------------------------------------------------------
B--------------------------------------------------------------------------------------------------
G---3--x--3------x----5--5---x---5------x---2--2--x--2------x---2------x--2---------------
D---3--x--3------x----5--5---x---5------x---2--2--x--2------x---2------x--2---------------
A---1--x---1--1--x----0--3--x---3---3--x-----------------------------------------------------
E------------------------------------------------0--1--x--1--1--x---1---1--x--1---------------
I believe in love songs….


Aucune note. Soyez le premier à attribuer une note !

Ajouter un commentaire
 

Créer un site gratuit avec e-monsite - Signaler un contenu illicite sur ce site

×