Plain Jane

so simple hearted
and not so remarkable
as an ordinance 
with the common folk
expecting nothing from the coming of another person's joke

what you do remains as empty
when it's full of giving life
so that no one sees the deeds you've done
and no ones hears you cry
you make all the fashion statements just by dressing up your mind

stay free
stay the same
play it straight
and own your name
plain Jane

you're a hero and you hardly know it
so it goes again
you're the reason that I fell in love
you're the reason that I am
your belief in being normal means to wrap around my hand
you are more than just the average girl you've more to give the world yet you keep your secrets to yourself 'til you press them to a pearl you are everything the every man wants to see and longs to be stay free stay the same play it straight and own your name plain Jane you're as you are when mother made it so as you are when mother made a star you'll go far if you stay free stay the same play it straight and own your name plain Jane stay free stay the same play it straight and own your name plain Jane



Tablature


Standard Tuning
No Capo
 

Intro


e---------5-------|----0------|-----3------|----0------|
B-------5--5--5---|--3--3--3--|---3--3--3--|--3--3--3--|
G-----4h5----5----|--0----0--0|---0----0--0|--2----2--2|
D-----------------|-----------|--0---------|-0---------|
A-----------------|-2----2--2-|------------|-----------|
E--5-5---5--5--5h7|0--0-------|3---3--3--3-|2--2--2--2-|


e------0------|----0------|----0------|-----0------|

B----3--3--3--|--3--3--3--|--3--3--3--|---0--0--0--|

G----2----2--2|--2----2--2|--2----2--2|---1----1--1|

D---0---------|-0---------|-0---------|---2--------|

A--------1--1-|------1--1-|-----------|------------|
E--1--1-------|1--1-------|0--0--0--0-|0-0-0--0--0-|


Verse
e---------5-------|----0------|-----3------|----0------|
B-------5--5--5---|--3--3--3--|---3--3--3--|--3--3--3--|
G-----4h5----5----|--0----0--0|---0----0--0|--2----2--2|
D-----------------|-----------|--0---------|-0---------|
A-----------------|-2----2--2-|------------|-----------|
E--5-5---5--5--5h7|0--0-------|3---3--3--3-|2--2--2--2-|


E------0------|----0------|-----0------|

B----3--3--3--|--3--3--3--|---0--0--0--|

G----2----2--2|--2----2--2|---1----1--1|

D--- 0------- --|-0------- --|---2--------|

A-------------|-----------|------------|

E--1--1--1--1-|0--0--0--0-|0-0-0--0--0-|


Chorus e---------5-------|------0-----|-----3------|----0------|
B-------5--5--5---|----3--3-3--|---3--3--3--|--3--3--3--|
G-------5----5--5-|----4-----4-|---0----0--0|--2----2--2|
D-----------------|------------|--0---------|-0---------|
A-----------------|------------|------------|-----------|
E--5-5---5--5--5--|4-4--4--4---|3---3--3--3-|2--2--2--2-|

e—-----0------|----0------|----0------|-----0------|

B----3--3--3--|--3--3--3--|--3--3--3--|---0--0--0--|

G----2----2--2|--2----2--2|--2----2--2|---1----1--1|

D---0---------|-0---------|-0---------|---2--------|

A--------1--1-|------1--1-|2--2--2--2-|------------| E--1--1-------|1--1-------|-----------|0-0-0--0--0-|

Aucune note. Soyez le premier à attribuer une note !

Ajouter un commentaire
 

Créer un site gratuit avec e-monsite - Signaler un contenu illicite sur ce site

×