Prettiest Friend


this is what I look like today
and I’m trying not to pull out my hair
I’m trying not to show it cause I’m far too shy to grow it back there
that's probably why I like wearing
hats
there's no denying I’m deferring the facts
avoiding confrontation
lacks tact in a situation
behind every line is a lesson yet to learn

but if you ask me
the feeling that I’m feeling is overwhelming
and oh it goes to show
I’ve so much to know

I wrote this for my prettiest friend
who while trying not to prove that I care
trying not to make all my moves in one motion and scare her away
well she can't see she's making me crazy now
I don't believe she knows she's amazing how
she has me holding my breathe
so I’d never guess that I’m a none such unsuitable, suitable for her

but if you ask me
the feeling that I’m feeling is complimentary
and oh it goes to show
the moral of the story is boy loves girl
and so on the way that it unfolds is yet to be told

I know that I should be brave
even pretty can be seen by the blind
I know that I cannot wait
until the day we finally learn how to find each other
redefining open minds

and if you ask me
the feeling that I’m feeling is overjoyed
and it's golden, it goes to show then
the ending of this song should be left alone
and so on cause the way it unfolds is yet to be told

 


 Tablature


 

Standard Tuning

No Capo

 

Intro (2x)

e|-------------0---------3---------------------------------------|
B|----------1-----------3----------2----1-0--------------------|
G|--------0----------------------2---2-------2-0-------0------|
D|-----2----------------------0------------------------2--------|
A|---3--------------2---------------------------------2----------|
E|-----------------3---------------------------------0-----------|

e|------------------------3--------3-----------------------------|
B|---------1-----------1--------3----1-3-1-0-------------------|
G|-------2-----------0------------------------------------------|
D|-----3----------2--------------------------------------------|
A|---------------3-------------2--------------------------------|
E|--1------------------------3-----------------------------------|


(1)
e|-------------0---------3-----------------------------------|
B|----------1-----------3----------2------------------------|
G|--------0----------------------2---2--------------0------|
D|-----2----------------------0-------------------2--------|
A|---3--------------2----------------------------2----------|
E|-----------------3-----------------------------0-----------|

e|------------------------3--------3-----------------------|
B|---------1-----------1--------3----1--------------------|
G|-------2-----------0-------------------------------------|
D|-----3----------2----------------------------------------|
A|---------------3-------------2---------------------------|
E|--1------------------------3-----------------------------|

(2)

e|-------1-------------3------3-------- ||----0---0------------------|
B|-------3-------------3-----1----------||--0----0--------------|
G|-------2-------------------0----------||--0----2-------------|
D|---0-----------------------2----------||--2----2-----------------|
A|-----------------2---------3----------||--2----0------------------|
E|-----------------3--------------------||---0---------------------|
Repeat 2x Only Repeat for 2nd time

(3)

e|------0----0------0------3--------0-----0-----0------3----------|
B|-----0----0-------1------1------0-----0----1-------3-------|
G|----2-----0------2------0-------2-----0----2------0-------------|
D|----2-----2------3------2-------2-----2----3------0----------------|
A|----0-----2------0------3-------0-----2----0------2----------------|
E|----------0------1---------------------0----1------3------------|



(1)this is what I look like today
and I’m trying not to pull out my hair
I’m trying not to show it cause I’m far too shy to grow it back there
that's probably why I like wearing hats
there's no denying I’m deferring the facts
avoiding confrontation
lacks tact in a situation
behind every line is a lesson yet to learn

(2)but if you ask me
the feeling that I’m feeling is overwhelming
and oh it goes to show
I’ve so much to know

(1)I wrote this for my prettiest friend
who while trying not to prove that I care
trying not to make all my moves in one motion and scare her away
well she can't see she's making me crazy now
I don't believe she knows she's amazing how
she has me holding my breathe
so I’d never guess that I’m a none such unsuitable, suitable for her

(2)but if you ask me
the feeling that I’m feeling is complimentary
and oh it goes to show
the moral of the story is boy loves girl
and so on the way that it unfolds is yet to be told

(3)I know that I should be brave
even pretty can be seen by the blind
I know that I cannot wait
until the day we finally learn how to find each other
redefining open minds

(2)and if you ask me
the feeling that I’m feeling is overjoyed
and it's golden, it goes to show then
the ending of this song should be left alone
and so on cause the way it unfolds is yet to be told

 

 

 

1 vote. Moyenne 4.50 sur 5.

Ajouter un commentaire
 

Créer un site gratuit avec e-monsite - Signaler un contenu illicite sur ce site