Shy That Way


 

you know you're stunning
well you're absolutely stunning
and I’m running always running
and now I’m crying
you know only cause I’m caring
and if you were more daring maybe you'd stop staring
and come over and talk to me
and tell me bout how you've been waiting so patiently
and now you try but I just turned away
and I’ll say, "yeah well you know, I’m shy that way"

I’m shy that way
maybe I’m shy that way
you know she's stunning
she's absolutely stunning
but she's always running
but I’ll catch up to her
the way she keeps her distance
keepin my interest
so I’ll keep it consistent
ooh, maybe someday, someway, somehow, sometime
we'll get together and we'll, we'll break it down
and I’ll ask, "why you gotta be so shy, why you gotta be that way?"
well maybe, baby, I like it that way

shy that way
maybe I like it shy that way
maybe I love you so shy that way

ok, I’m shy that way

there's always too much talking
and I wanna just keep walking
and I keep staring, baby, keep staring
though I may not know the right things to say
I’ll get it out to you one day

I’m shy that way
shy that way

oh do you like it? do you like it when I’m shy that way
yes I like it, yes I like it, when your shy

shy that way

I’m shy that way

 

 

 


Tablature


 

 

Standard Tuning

No Capo


Intro, Tristan's verse, and last verse.

|-----7-10-10--------3---------------7-10-10--------3-----------------|
|---8-7-10----10-----3-------------8-7-10----10-----3-----------------|
|---7-7----------0-----------------7-7----------0---------------------|
|---5----9---------9-2-----0-2-2-4-5----9---------9-2-----0-2-2-4-----|
|-------10-----------3-2h3-------------10-----------3-2h3-------------|
|-0-------------------------------------------------------------------|
 
Chorus (Oh, I like it that way....shy that way...)

|-------------------7--12--|-------------|-------7--12---|
|----------------8--7--12--|-------------|----8--7--12---|
|-3--2--------1--7--7--12--|-3--2--------|-1--7--7--12---|
|-2--1--------2--5---------|-2--1--------|-2--5----------|
|-3--2--------2------------|-3--2--------|-2-------------|
|-------3--2---------------|-------3--2--|---------------|
 
Jason's Verse (You know she’s stunning, she’s absolutely stunning...)
 
|-------7--10--3--3--|-------7--10--|-3--3----|
|----8--7--10--3--3--|----8--7--10--|-3--3----|
|----7--7------------|----7--7------|---------|
|----5------9--2--2--|----5------9--|-2--2----|
|----------10--3--3--|----------10--|-3--3----|
|-0------------------|-0------------|---------|
 
Guitar Solo
|-----------------------------------------------------------|
|--------------------------------------------------3--5--8--|
|-7/--9--7--------------------------------------4-----------|
|-----------9--7--5--7--2--7--4--4h=5p=4--0--2--------------|
|-----------------------------------------------------------|
|-----------------------------------------------------------|

|--------------|-------------|-------------|-------------|-------|
|--------------|-------------|-------------|-------------|-3--5--|
|-7/--9--7-----|-------------|-------------|----------4--|-------|
|-----------9--|-7--5--7--2--|-7--4--4h=5p=|=4--0--2-----|-------|
|--------------|-------------|-------------|-------------|-------|
|--------------|-------------|-------------|-------------|-------|

 

Aucune note. Soyez le premier à attribuer une note !

Ajouter un commentaire
 

Créer un site gratuit avec e-monsite - Signaler un contenu illicite sur ce site