Strange


strange because I believe it is my future staring back at me
with eyes so light I never dreamed it could be anything else than what they could see
oh they are colors that collide and scope my heart belongs in two
magnificent, ever-changing patterns do
I’m wide awake at the wheel
it's oh so crazy
because I can see it could be my present so pleasantly deprived
I never seen the explained prophecies
or anything else it should be
oh they are troubled in disguise
behind wise eyes and wise cracking smiles
hypnotized behind the pan on a thirty hour drive
I’m not at all what I seem
but my intentions are practical inventions
forgot to mention I’m insane by definition
we're takin pictures on the paper
no escape the morning after
I outride the wave

but all in all it's unlikely I’ll succeed
say all in all it's unlikely
but all in all it's unlikely I’ll succeed
all in all it's unlikely
and all in all it's unlikely we'll succeed
all in all, I say it's unlikely
but all in all it's unlikely I’ll succeed
I’ve developed a lovely distaste for your heart on my sleeve

oh we keep it simple
keep it clean
keep repeating the words as often as you need
oh think, think, blinks like a turning signal
made to turn, turn away
oh from anything good people say
oh now I will be selective, calm, cool and collective
and listening to the voice and its prospective
hoping that the choice is appropriately respected
protective me
protective me
protective me
protective me
but I would like a little sugar in my coffee
I would like a little dream
and I’d prefer another smoke before the morning or anything else in between

and all in all it's unlikely we'll succeed
say all in all it's unlikely
but all in all it's unlikely we'll succeed
all in all it's unlikely
but all in all it's unlikely we'll succeed
and all in all it's unlikely
but all in all it's unlikely we'll succeed
I’d developed a lovely distaste for your wide open spaces
I sense a delay
oh brushing my mind and scrubbing behind all the places
I fear the decay of information
oh yeah
say run, boy

it's oh so wicked and it's wild
your past, your former style
oh fake and make believe in
knowing why you're leavin home
you're just wanting to be on your own
wanting to be on your own
wanting to be on your own

 



Tablature


 

 

Standard Tuning
No Capo 
 
verse
e--------------------------
B--------------------------
G------6-----8-----9---8---
D------6-----6-----9---9---
A--------------------------
E--0h5---0h7---0h9---9-----
 
Occasional verse and into chorus
e---------------------------
B---------------------------
G------6-----8----11----11--
D------6-----6----9-----9---
A---------------------------
E--0h5---0h7---10----10-----
 
Chorus intro
e---------------------------
B---------------------------
G------11---9---7---7-------
D------9----9---7---7-------
A---------------------------
E-9-10----9---7---7---------
 
Chorus
e--------------------------
B--------------------------
G-----11---9---7---7-------
D-----9----9---7---7-------
A--------------------------
E--10----9---7---7---------
 
Chorus into Verse
e-------------------------------
B-------------------------------
G-----11---9---9---8------------
D-----9----9---9---9------------
A-------------------------------
E--10----9---7---7---7-7-6-5-4--

Aucune note. Soyez le premier à attribuer une note !

Ajouter un commentaire
 

Créer un site gratuit avec e-monsite - Signaler un contenu illicite sur ce site