Summer Breeze


See the curtains hanging in the window
In the evening on a Friday night
A little light shining through the window
Lets me know that everything's alright


Summer breeze, well it makes me feel fine
Blowing through the jasmine in my mind
Summer breeze, makes me feel fine
Blowing through my, makes me feel it right
Making me feel, making me feel fine
Makes me feel fine
Blowing through the jasmine in my mind


Oh sweet days of summer, the jasmine's in bloom
July is dressed up and playing her tune
And when I come home from a hard day's work
And you're waiting there, yes you're waiting there
Without A care in the world


I see the smile awaiting in the kitchen
Food's cooking and a place there for two
I see the arms that reach out to hold me
In the evening when the day is through

Summer breeze, well it makes me feel fine
Blowing through the jasmine in my mind
Summer breeze, makes me feel fine
Blowing through my, making me feel right
Making me feel, making me feel fine 
Makes me feel right

Blowing through the jasmine in my, blowing blowing(x5)

Blowing through the jasmine in my mind

 

 


Tablature


 

Standard Tuning
No Capo
 
First part of intro
e----0--0--0------0--0--0------0--0--0------0------ 
B----0--8--8------3/-8--8------0--8--8------3----- 
G----1/-0--0------0--0--0------1/-0--0------0------ 
D-2--2/-9--9---4--4/-9--9---2--2/-9--9---4--4----- 
A--2-2/-10-10---5-5/-10-10---2-2/-10-10---5-5----- 
E----0------------0------------0------------0------ 
 
Rest of intro (repeat a couple times)
e----0--0--0--- 
B----0--8--8--- 
G----1/-0--0--- 
D-2--2/-9--9--- 
A--2-2/-10-10--
E----0--------- 
 
Verse 1 (He usually goes to A like in this one, but sometimes he just holds the E for 4 beats-Verse 2)
e-0--0--0--0--0--0--0--0-- 
B-0--1--3--2--0--0--0--0-- 
G-1--0--2--2--1--1--2--2-- 
D-2--0--0--2--2--2--2--2-- 
A-2--2--0--0--2--2--0--0-- 
E-0--3--x--0--0--0--0--0-- 
 
Verse 2
e-0--0--0--0--0--0--0--0-- 
B-0--1--3--2--0--0--0--0-- 
G-1--0--2--2--1--1--1--1-- 
D-2--0--0--2--2--2--2--2-- 
A-2--2--0--0--2--2--2--2-- 
E-0--3--x--0--0--0--0--0--
 
into chorus
e-----0--0--0--0--- 
B-----0--0--0--0--- 
G-----5--7--5--3--- 
D-----7--9--7--5--- 
A-----7--9--7--5--- 
E-0/5-5--7--5--3--- 
 
Chorus (repeat)
e-0--0—
B-0--0-- 
G-5--7-- 
D-7--9-- 
A-7--9-- 
E-5--7--
 
Chorus (repeat)
e-0--0--0--0--- 
B-0--0--0--0--- 
G-5--7--5--3--- 
D-7--9--7--5--- 
A-7--9--7--5--- 
E-5--7--5--3---
 
Version 2
 
INTRO:
(played 6 times)
Em C
E |----------------|
B |----0-1---------|
G |----0-0---------|
D |----2-2---------|
A |--2---3---------|
E |0---------------|
1 2 3 4
Em G
See the curtains hanging in the window
D A Em C
In the evening on a Friday night
Em G
A little light a shinin' through the window
D A Em C
Lets me know everything is all right
CHORUS:
Am Bm
Summer breeze, makes me feel fine
Am G
Blowing through the jasmine in my mind
Am Bm
Summer breeze, makes me feel fine
Am G
Blowing through the jasmine in my mind
(intro bit played 4 times)
Em G
See the paper laying on the sidewalk
D A Em C
A little music from the house next door
Em G
So I walk on up to the doorstep
D A Em C
Through the screen and across the floor
Am Bm
Summer breeze, makes me feel fine
Am G
Blowing through the jasmine in my mind
Am Bm
Summer breeze, makes me feel fine
Am G
Blowing through the jasmine in my mind
(then intro bit played during: )
Em C Em C
Sweet days of summer, the jasmines in bloom
Em C Em C
July is dressed up and playing her tune.
Am Bm
And I come home from a hard days work
Am Bm
And you're waiting there not a care in the world
Em G
See the smile waitin in the kitchen
D A Em C
Food cooking and plates for two
Em G
Feel the arms that reach out to hold me
D A Em C
In the evening when the day is through
Am Bm
Summer breeze, makes me feel fine
Am G
Blowing through the jasmine in my mind
Am Bm
Summer breeze, makes me feel fine
Am G
Blowing through the jasmine in my mind

 

 

Aucune note. Soyez le premier à attribuer une note !

Ajouter un commentaire
 

Créer un site gratuit avec e-monsite - Signaler un contenu illicite sur ce site