The Darkest Space

Well I'm not just a song anymore
I just might be the whole damn score
I might be realing in your head while
you're sleeping in your bed at night
well I'm not just along anymore
I finally found what I've been lookin for
I might be sitting in the passenger's
side but not along for the ride
Cause I have control of a home grown situation
I lay back and then I turn the alarm off and turn out the light
There's goin to be some quality sleeping
cuz quality's keeping the quality up at night
I am fixed to lay with my arms out and learning to fly

Through the darkest space
Where I try to catch up to the catch phrase
To human race I say let the games begin
Under way say in conditions that we play in
Maybe things are better this way
may the games begin today awww

oh well...Cause I'm just above
the aggrevation of love
and I raise to opimistical fortune and toasting it twice
I'm sitting high on an anytime any day night
And I laugh to think I'm crying my eyes out well isn't it nice

Through the darkest space
Where I try to catch up to the catch phrase
To human race I say let the games begin
Under way say in conditions that we play in
Maybe things are better this way
may the games begin today awww

An open space when I finally catch up to the catch phrase

To human race I say let the games begin
Under way say in conditions that we play in
Maybe things
may the games begin today awww
The whole damn world is your toy
Don't you want some love
Don't you want things to always stay the same
Don't you want your love to be the same as the last day

 

 


Tablature


 


Standard Tuning
No Capo
 
Intro/Verse
 
e(10)-(10)---8---(10)--(10)--------------------
b 11---10----8----10----11---------------------
g 12---11----8----11----12---------------------
d 12---10---10---10-----12--------------------
a 10---9-----10---9------10--------------------
e--------------8----------------------------------
 
Chorus
 
e-6---6---6---6---4---3--(10)---
b-8---6---8---6---4---3---10----
g-8---7---8---7---5---4---11----
d-8---8---8---8---6---5---10----
a-6---8---6---8---6---5---9------
e-x---6---x---6---4---3---x------
 

 

Aucune note. Soyez le premier à attribuer une note !

Ajouter un commentaire
 

Créer un site gratuit avec e-monsite - Signaler un contenu illicite sur ce site