The Longest Day Of The Year

I couldn't sleep last night
I laid awake
and wished you were here
I wished that I had more time
to make more mistakes
to make them louder
and clearer
I couldn't sleep last night
finding it quite inviting
I just couldn't sleep last night

not a light was on
as I held this song in mind
of you
and what you do to me
I can follow the room
I close my eyes
it didn't move
if I was only stronger
I wish that I were stronger here
referring through the heartsongs dear*
cuz this day is the longest of the year

cuz I didn't sleep last night
not for a lack of trying
I just didn't sleep last night
by the light of day may my dreams be waking

time...in due time
I won’t rest my thoughts of you

could I be more lucky than I've grown to be
just knowing that I know her
why shouldn't I show her
the wiser getting older
could she be more perfect in perfection her reflection is casting ?
and that's the last thing
I'll be ever asking

I couldn't sleep last night
just couldn't get it right
I couldn't sleep last night
this is the longest day of the year

 

 


Tablature


 

Capo on 4th fret
Intro 
x--x--x-----------------------
0--1--3-----------------------
0--0--4--------8-------------
2--2--5------9---9-----------
2--3--5----9------9----------
0--x--3—7------------------

Verse
x--x--x------------------------------------
0--1--3------------------------------------
0--0--4--------8-----------------9--------
2--2--5------9---9------------9---9------
2--3--5----9------9---------9------9-----
0--x--3—7---------------7--------------- 

or
x--x--x---------------------------------------
0--1--3----------4-------------------5-------
0--0--4--------4---4--------------4----4----
2--2--5------4-------4---------4----------4-
2--3--5----2-----------------2---------------
0--x--3—------------------------------------
I can’t decide..both sound correct

Chorus
x--x--x-------x--x--x--0-------x--x----------x--------------------0--------------------0-------
1--4--3-------1--4--3--0------1--4----------3--------------------0--------------------0-------
0--0--4-------0--0--4--2------0--0----------4----------------0--------------------0-----------
2--5--5-------2--5--5--0------2--5------5--------5--------2-----------2-------2----------2--
3--6--5-------3--6--5--4------3--6----5--------5-------4-----------4-------3-----------3----
x--x--3-------x--x--3--x------x--x--3---------------------------------------------------------
…light was on while I held this song
---------0--------------------0----------------------------x-------------2--3--0----x--x---x------------
---------0--------------------0----------------------------3--------------------------1--4---3-----------
-----0-------------------0---------------------------------4--------0----------------0--0---4------------
---0----------0------2-----------2--------0---2----------5-----2-------------------2--5---5------------
2----------2-------3-----------3-------2-----------------5---4---------------------3--6---5-------------
-----------------------------------------------------------3--------------------------x--x---3--3--2--0—
Verse
Chorus
--------0---------------0---------------------------x--------------x--x--x--------------2--3--0--x—0------x
--------0---------------0---------------------------3-------------1--4--3------3------------------1-----3--3
----0---------------0-------------------------------4--------0---0--0--4----4--------0-----------0---------4
--0---------0----2----------2------7--6--5--------5-----2-------2--5--5-----------2-------------2--------5
2---------2----3----------3----2-------------------5--4----------3--6--5---------4---------------3--------5
-------------------------------------7--6--5--------3--------------x--x--3-------------------------x--------3

Aucune note. Soyez le premier à attribuer une note !

Ajouter un commentaire
 

Créer un site gratuit avec e-monsite - Signaler un contenu illicite sur ce site