Unfold

Hands in line
Arms close to my side
I'm fighting tides of an ocean's undertow
And I figure I might not make it
And I'm taking empty
But seldom keeping
And the words retreat breathing histories into stories untold
And I unfold.

My hands are high
And I'm holding out, holding up
Because I figure that I just might make it
And I'm waking empty but seldom sleeping
And the words repeat breathing histories into stories untold
And I unfold.

Quality is what you see now in the corner of your eye.
Don't be surprised if you hear the bells ring
They form from the sky and they sound bong, bong, bong
And I'm holding up because I figure that I just make it.

And I'm waking empty but seldom sleeping
And the words repeat breathing histories into stories untold
And I unfold

 

 


 

Tablature


 

 

Drop D Tuning (DADGBE)
Capo on the 2nd Fret

 

Part (1)
e------------------------------------------------------------------------
B------------------------------------------------------------------------
G------------7-------------7--7--7---------------------------------------
D------------7--7----------7--7--7--as many times as you want, then------
A--5h7--7/9--9--7--2--2/5--5--0--5---------------------------------------
E--0----0----0--0--0--0----0--0--0---------------------------------------
            *   
*hold this chord longer the first few times you play through the intro.
 
e---------------------------------
B-------------7-------------------
G---6-7---11--7---9---7-----------
D---7-7---12--7---7---5-----------
A---4-4---9---9---7---5-----------
E---4-4---9---9---7---5-----------

e-----------------------------
B-----------------------------
G-------7-------------7-------
D-------7--7----------7---2x--
A--7/9--9--7--2--2/5--5-------
E--0----0--0--0--0----0-------

Part (2)
e-------------------------------------------------------------------
B-------------------------------------------------------------------
G--7-7-7---6-7---11---9---7--------7-------------7------------------
D--7-7-7---7-7---12---7---5--------7--7----------7---back to *------
A--5-0-5---4-4---9----7---5---7/9--9--7--2--2/5--5------------------
E--0-0-0---4-4---9----7---5---0----0--0--0--0----0------------------
          *
Part (3)
e--------------------------
B--------------------------
G-------7-------------7----
D-------7--7----------7----
A--7/9--9--7--2--2/5--5----
E--0----0--0--0--0----0----

Part (4)
e---------------------------------------------
B---------------------------------------------
G---6-7---11---9---7--------------------------
D---7-7---12---7---5--------------------------
A---4-4---9----7---5--------------------------
E---4-4---9----7---5--------------------------
Part (5)
e--------------------------------------------------
B--------------------------------------------------
G-------7-------------7---6-7---11---9-------------
D-------7--7----------7---7-7---12---7-------------
A--7/9--9--7--2--2/5--5---4-4---9----7-------------
E--0----0--0--0--0----0---4-4---9----7-------------
   |__________________|
     this section done
        quickly
Part (6)
e--------------------
B--------------------
G--11---6-7----------
D--12---7-7----------
A--9----4-4----------
E--9----4-4----------
 
Part (7)
e-----------
B-----------
G--9---7----
D--7---5----
A--7---5----
E--7---5----
(1)
(pause)
(2)Hands in line
Arms close to my side
I'm fighting tides of an ocean's undertow 
And I figure I might not make it out (5) 
And I'm taking empty 
But seldom keeping
And the words retreat breathing histories into stories untold
And my arms unfold.
 
(3)-2x
 
My hands are (4)high
And I'm holding out, holding up 
I figure that I just might make it (5)
And I'm waking empty but seldom sleeping
And the words repeat breathing histories into stories untold
And I unfold.
(All of Part (3) with end chord (4476xx))
 
(6)Quality is what you see now in the corner of your eye.
Don’t be surprised if you hear the bells ring
They form from the sky and they sound bong, bong, bong, bong
they sound bong, bong, bong, bong bong bong
..ba dump...(7)
 
(6)lookin in this I am
holding out, holdin' up, holdin up
And I'm holding out, holding up 
And I'm holdin up this time
I figure that (7)I just might make it
 
(5)And I’m waking empty but seldom sleeping
And the words repeat breathing histories into stories untold
And I unfold.
 
(to end do Part (3) twice)

1 vote. Moyenne 4.50 sur 5.

Ajouter un commentaire
 

Créer un site gratuit avec e-monsite - Signaler un contenu illicite sur ce site