Water

the eye of the storm meets the eye of the mind sending it spinning
the eye of the mind blushes in lust of all the answers
the eye of the mind blushes in lust of all the answers
for years of tears oh years and fears

oh the bitter water
oh my god, satiated and always covered in salt
keeping me afloat
and it’s always, it’s moving me along, moving me along
when I can see everything, I can see everything

and I can see through buildings,
all the shattered lives, and all them so-called battered wives
and everybody’s hypnotized by the dancing light
a TV set making everybody go blind

and I can see everything
and I can see through you
oh love love love love love
I can see through you too
oh love love love love

and when I look inside I know what it’s all about
cause you are living in a fantasy world
taking your time, running your mind on low
you are living in a fantasyland
holding nobody’s hand but your own

said I, and I can see everything
one drop of rain, that’s me, and all the rest is you
who shook these trees, let me guess, did they come in twos?
oh yes they did
see now, oh, when you’re dealing with the fruits of the universe, love
well you shake that apple tree
and life deals you an orange
and either way, either way, you’re cursed
don’t make it a turn for the worse

oh the bitter water
satiated and always covered in salt
it’s keeping me afloat, it’s keeping me afloat
and it’s always moving me along
and I can see everything
everything, everything, everything, everything
everything, everything, everything, everything

said it’s keeping me on top of the water
keeping me on top of the world
Keeping me on top,
I’m looking out just to see what everything is all about
cause I know where it is
just don’t know exactly what it is, no
see I think I know where it is, where it is, where it is
I just don’t know exactly what the hell it is
but its where the heart is, it’s where the heart is
it’s where it all started, oh love, oh
it’s where the hearts is, it's where the heart is,
it’s where it all started, oh love, oh
 

Tablature

 
Standard Tuning
Capo on the 2nd Fret 

Intro/Verse

E-------------------------------------------------
B-------------------------------------------------
G------1----------------------1-------------------         E Chord
D---------2----------------------2----------------
A------------2- 2- 2/h4-------------2—2--2/h4-----
E--0------------------------0---------------------

 

E-------------------------------------------------
B------------------------------2/h0---------------
G-------1----------------1------------------------         E/A Chord
D-----------2-----2-------------------------------
A--0-----------0-----0----------------------------
E-------------------------------------------------

Bridge

E----0---------0--------------

B----5---------0--------------

G----4---------1--------------     Cmaj7and E/A Chords

D----5---------2-------------- A--- 3---------0-------------- E----0------------------------

Aucune note. Soyez le premier à attribuer une note !

Ajouter un commentaire
 

Créer un site gratuit avec e-monsite - Signaler un contenu illicite sur ce site